ISO-10303-21;
HEADER;
FILE_DESCRIPTION( ( 'STEP AP203' ), '1' );
FILE_NAME( 'p:/temp/worker_103/temp/exporttempdir_5296_742_qwgB3/format_0/30050005007(architecture400).stp', '2022-04-08T10:53:46', ( 'License CC BY-ND 4.0' ), ( 'CADENAS' ), ' ', 'PARTsolutions', ' ' );
FILE_SCHEMA( ( 'CONFIG_CONTROL_DESIGN' ) );
ENDSEC;
DATA;
#1 = DESIGN_CONTEXT( '', #27, 'design' );
#2 = APPLICATION_PROTOCOL_DEFINITION( 'international standard', 'config_control_design', 1994, #27 );
#3 = PRODUCT_CATEGORY_RELATIONSHIP( 'NONE', 'NONE', #28, #29 );
#4 = DATE_AND_TIME( #30, #31 );
#5 = DATE_TIME_ROLE( 'creation_date' );
#6 = DATE_TIME_ROLE( 'classification_date' );
#7 = PERSON_AND_ORGANIZATION_ROLE( 'creator' );
#8 = PERSON_AND_ORGANIZATION_ROLE( 'design_supplier' );
#9 = PERSON_AND_ORGANIZATION_ROLE( 'classification_officer' );
#10 = PERSON_AND_ORGANIZATION_ROLE( 'design_owner' );
#11 = APPROVAL_PERSON_ORGANIZATION( #32, #33, #34 );
#12 = APPROVAL_DATE_TIME( #4, #33 );
#13 = CC_DESIGN_APPROVAL( #33, ( #35, #36, #37 ) );
#14 = CC_DESIGN_DATE_AND_TIME_ASSIGNMENT( #4, #5, ( #37 ) );
#15 = CC_DESIGN_DATE_AND_TIME_ASSIGNMENT( #4, #6, ( #35 ) );
#16 = CC_DESIGN_PERSON_AND_ORGANIZATION_ASSIGNMENT( #32, #10, ( #38 ) );
#17 = CC_DESIGN_PERSON_AND_ORGANIZATION_ASSIGNMENT( #32, #7, ( #37 ) );
#18 = CC_DESIGN_PERSON_AND_ORGANIZATION_ASSIGNMENT( #32, #7, ( #36 ) );
#19 = CC_DESIGN_PERSON_AND_ORGANIZATION_ASSIGNMENT( #32, #8, ( #36 ) );
#20 = CC_DESIGN_SECURITY_CLASSIFICATION( #35, ( #36 ) );
#21 = CC_DESIGN_PERSON_AND_ORGANIZATION_ASSIGNMENT( #32, #9, ( #35 ) );
#22 = SHAPE_DEFINITION_REPRESENTATION( #39, #40 );
#23 =  ( GEOMETRIC_REPRESENTATION_CONTEXT( 3 )GLOBAL_UNCERTAINTY_ASSIGNED_CONTEXT( ( #43 ) )GLOBAL_UNIT_ASSIGNED_CONTEXT( ( #45, #46, #47 ) )REPRESENTATION_CONTEXT( 'NONE', 'WORKSPACE' ) );
#27 = APPLICATION_CONTEXT( 'configuration controlled 3D designs of mechanical parts and assemblies' );
#28 = PRODUCT_CATEGORY( 'part', 'NONE' );
#29 = PRODUCT_RELATED_PRODUCT_CATEGORY( 'detail', ' ', ( #38 ) );
#30 = CALENDAR_DATE( 2022, 8, 3 );
#31 = LOCAL_TIME( 12, 53, 46.0000000000000, #49 );
#32 = PERSON_AND_ORGANIZATION( #50, #51 );
#33 = APPROVAL( #52, 'SOLID MODEL' );
#34 = APPROVAL_ROLE( 'APPROVED' );
#35 = SECURITY_CLASSIFICATION( '', '', #53 );
#36 = PRODUCT_DEFINITION_FORMATION_WITH_SPECIFIED_SOURCE( ' ', 'NONE', #38, .NOT_KNOWN. );
#37 = PRODUCT_DEFINITION( 'NONE', 'NONE', #36, #1 );
#38 = PRODUCT( '_30050005007(architecture400)', '_30050005007(architecture400)', 'PART-_30050005007(architecture400)-DESC', ( #54 ) );
#39 = PRODUCT_DEFINITION_SHAPE( 'NONE', 'NONE', #37 );
#40 = ADVANCED_BREP_SHAPE_REPRESENTATION( '_30050005007(architecture400)', ( #55, #56 ), #23 );
#43 = UNCERTAINTY_MEASURE_WITH_UNIT( LENGTH_MEASURE( 0.00100000000000000 ), #45, '', '' );
#45 =  ( CONVERSION_BASED_UNIT( 'MILLIMETRE', #59 )LENGTH_UNIT(  )NAMED_UNIT( #62 ) );
#46 =  ( NAMED_UNIT( #64 )PLANE_ANGLE_UNIT(  )SI_UNIT( $, .RADIAN. ) );
#47 =  ( NAMED_UNIT( #64 )SI_UNIT( $, .STERADIAN. )SOLID_ANGLE_UNIT(  ) );
#49 = COORDINATED_UNIVERSAL_TIME_OFFSET( 1, 0, .AHEAD. );
#50 = PERSON( '', 'UNSPECIFIED', $, $, $, $ );
#51 = ORGANIZATION( 'UNSPECIFIED', 'UNSPECIFIED', 'UNSPECIFIED' );
#52 = APPROVAL_STATUS( 'approved' );
#53 = SECURITY_CLASSIFICATION_LEVEL( 'unclassified' );
#54 = MECHANICAL_CONTEXT( '', #27, 'mechanical' );
#55 = MANIFOLD_SOLID_BREP( '_30050005007(architecture400)', #70 );
#56 = AXIS2_PLACEMENT_3D( '', #71, #72, #73 );
#59 = LENGTH_MEASURE_WITH_UNIT( LENGTH_MEASURE( 1.00000000000000 ), #74 );
#62 = DIMENSIONAL_EXPONENTS( 1.00000000000000, 0.000000000000000, 0.000000000000000, 0.000000000000000, 0.000000000000000, 0.000000000000000, 0.000000000000000 );
#64 = DIMENSIONAL_EXPONENTS( 0.000000000000000, 0.000000000000000, 0.000000000000000, 0.000000000000000, 0.000000000000000, 0.000000000000000, 0.000000000000000 );
#70 = CLOSED_SHELL( '', ( #75, #76, #77, #78, #79, #80, #81, #82, #83, #84, #85, #86 ) );
#71 = CARTESIAN_POINT( '', ( 0.000000000000000, 0.000000000000000, 0.000000000000000 ) );
#72 = DIRECTION( '', ( 0.000000000000000, 0.000000000000000, 1.00000000000000 ) );
#73 = DIRECTION( '', ( 1.00000000000000, 0.000000000000000, 0.000000000000000 ) );
#74 =  ( LENGTH_UNIT(  )NAMED_UNIT( #62 )SI_UNIT( .MILLI., .METRE. ) );
#75 = ADVANCED_FACE( '', ( #88, #89 ), #90, .F. );
#76 = ADVANCED_FACE( '', ( #91, #92 ), #93, .T. );
#77 = ADVANCED_FACE( '', ( #94 ), #95, .T. );
#78 = ADVANCED_FACE( '', ( #96, #97 ), #98, .T. );
#79 = ADVANCED_FACE( '', ( #99, #100 ), #101, .F. );
#80 = ADVANCED_FACE( '', ( #102, #103 ), #104, .T. );
#81 = ADVANCED_FACE( '', ( #105, #106 ), #107, .F. );
#82 = ADVANCED_FACE( '', ( #108, #109 ), #110, .F. );
#83 = ADVANCED_FACE( '', ( #111, #112 ), #113, .F. );
#84 = ADVANCED_FACE( '', ( #114, #115 ), #116, .T. );
#85 = ADVANCED_FACE( '', ( #117, #118 ), #119, .F. );
#86 = ADVANCED_FACE( '', ( #120 ), #121, .F. );
#88 = FACE_BOUND( '', #122, .T. );
#89 = FACE_OUTER_BOUND( '', #123, .T. );
#90 = PLANE( '', #124 );
#91 = FACE_OUTER_BOUND( '', #125, .T. );
#92 = FACE_OUTER_BOUND( '', #126, .T. );
#93 = CYLINDRICAL_SURFACE( '', #127, 32.2500000000000 );
#94 = FACE_OUTER_BOUND( '', #128, .T. );
#95 = SPHERICAL_SURFACE( '', #129, 32.2500000000000 );
#96 = FACE_OUTER_BOUND( '', #130, .T. );
#97 = FACE_OUTER_BOUND( '', #131, .T. );
#98 = CYLINDRICAL_SURFACE( '', #132, 32.2500000000000 );
#99 = FACE_OUTER_BOUND( '', #133, .T. );
#100 = FACE_OUTER_BOUND( '', #134, .T. );
#101 = CYLINDRICAL_SURFACE( '', #135, 22.5833333333000 );
#102 = FACE_BOUND( '', #136, .T. );
#103 = FACE_OUTER_BOUND( '', #137, .T. );
#104 = PLANE( '', #138 );
#105 = FACE_OUTER_BOUND( '', #139, .T. );
#106 = FACE_OUTER_BOUND( '', #140, .T. );
#107 = CYLINDRICAL_SURFACE( '', #141, 25.0000000000000 );
#108 = FACE_BOUND( '', #142, .T. );
#109 = FACE_OUTER_BOUND( '', #143, .T. );
#110 = PLANE( '', #144 );
#111 = FACE_OUTER_BOUND( '', #145, .T. );
#112 = FACE_OUTER_BOUND( '', #146, .T. );
#113 = CYLINDRICAL_SURFACE( '', #147, 25.0000000000000 );
#114 = FACE_OUTER_BOUND( '', #148, .T. );
#115 = FACE_BOUND( '', #149, .T. );
#116 = PLANE( '', #150 );
#117 = FACE_OUTER_BOUND( '', #151, .T. );
#118 = FACE_OUTER_BOUND( '', #152, .T. );
#119 = CYLINDRICAL_SURFACE( '', #153, 22.5833333333000 );
#120 = FACE_OUTER_BOUND( '', #154, .T. );
#121 = SPHERICAL_SURFACE( '', #155, 22.5833333333000 );
#122 = EDGE_LOOP( '', ( #156 ) );
#123 = EDGE_LOOP( '', ( #157 ) );
#124 = AXIS2_PLACEMENT_3D( '', #158, #159, #160 );
#125 = EDGE_LOOP( '', ( #161 ) );
#126 = EDGE_LOOP( '', ( #162, #163 ) );
#127 = AXIS2_PLACEMENT_3D( '', #164, #165, #166 );
#128 = EDGE_LOOP( '', ( #167, #168 ) );
#129 = AXIS2_PLACEMENT_3D( '', #169, #170, #171 );
#130 = EDGE_LOOP( '', ( #172 ) );
#131 = EDGE_LOOP( '', ( #173, #174 ) );
#132 = AXIS2_PLACEMENT_3D( '', #175, #176, #177 );
#133 = EDGE_LOOP( '', ( #178, #179 ) );
#134 = EDGE_LOOP( '', ( #180 ) );
#135 = AXIS2_PLACEMENT_3D( '', #181, #182, #183 );
#136 = EDGE_LOOP( '', ( #184 ) );
#137 = EDGE_LOOP( '', ( #185 ) );
#138 = AXIS2_PLACEMENT_3D( '', #186, #187, #188 );
#139 = EDGE_LOOP( '', ( #189 ) );
#140 = EDGE_LOOP( '', ( #190 ) );
#141 = AXIS2_PLACEMENT_3D( '', #191, #192, #193 );
#142 = EDGE_LOOP( '', ( #194 ) );
#143 = EDGE_LOOP( '', ( #195 ) );
#144 = AXIS2_PLACEMENT_3D( '', #196, #197, #198 );
#145 = EDGE_LOOP( '', ( #199 ) );
#146 = EDGE_LOOP( '', ( #200 ) );
#147 = AXIS2_PLACEMENT_3D( '', #201, #202, #203 );
#148 = EDGE_LOOP( '', ( #204 ) );
#149 = EDGE_LOOP( '', ( #205 ) );
#150 = AXIS2_PLACEMENT_3D( '', #206, #207, #208 );
#151 = EDGE_LOOP( '', ( #209 ) );
#152 = EDGE_LOOP( '', ( #210, #211 ) );
#153 = AXIS2_PLACEMENT_3D( '', #212, #213, #214 );
#154 = EDGE_LOOP( '', ( #215, #216 ) );
#155 = AXIS2_PLACEMENT_3D( '', #217, #218, #219 );
#156 = ORIENTED_EDGE( '', *, *, #220, .F. );
#157 = ORIENTED_EDGE( '', *, *, #221, .F. );
#158 = CARTESIAN_POINT( '', ( 0.000000000000000, 0.000000000000000, -24.0000000000000 ) );
#159 = DIRECTION( '', ( 0.000000000000000, 0.000000000000000, 1.00000000000000 ) );
#160 = DIRECTION( '', ( 1.00000000000000, 0.000000000000000, -0.000000000000000 ) );
#161 = ORIENTED_EDGE( '', *, *, #221, .T. );
#162 = ORIENTED_EDGE( '', *, *, #222, .F. );
#163 = ORIENTED_EDGE( '', *, *, #223, .F. );
#164 = CARTESIAN_POINT( '', ( 0.000000000000000, 0.000000000000000, 11.0000000000000 ) );
#165 = DIRECTION( '', ( 0.000000000000000, -0.000000000000000, 1.00000000000000 ) );
#166 = DIRECTION( '', ( -1.00000000000000, 0.000000000000000, 0.000000000000000 ) );
#167 = ORIENTED_EDGE( '', *, *, #223, .T. );
#168 = ORIENTED_EDGE( '', *, *, #224, .F. );
#169 = CARTESIAN_POINT( '', ( 0.000000000000000, 0.000000000000000, 11.0000000000000 ) );
#170 = DIRECTION( '', ( 0.000000000000000, 0.000000000000000, 1.00000000000000 ) );
#171 = DIRECTION( '', ( 1.00000000000000, 0.000000000000000, 0.000000000000000 ) );
#172 = ORIENTED_EDGE( '', *, *, #225, .F. );
#173 = ORIENTED_EDGE( '', *, *, #224, .T. );
#174 = ORIENTED_EDGE( '', *, *, #222, .T. );
#175 = CARTESIAN_POINT( '', ( 24.7487373415292, 0.000000000000000, 35.7487373415292 ) );
#176 = DIRECTION( '', ( -0.707106781186548, 0.000000000000000, -0.707106781186547 ) );
#177 = DIRECTION( '', ( 0.707106781186547, 0.000000000000000, -0.707106781186548 ) );
#178 = ORIENTED_EDGE( '', *, *, #226, .T. );
#179 = ORIENTED_EDGE( '', *, *, #227, .T. );
#180 = ORIENTED_EDGE( '', *, *, #228, .F. );
#181 = CARTESIAN_POINT( '', ( 0.000000000000000, 0.000000000000000, 33.5833333333333 ) );
#182 = DIRECTION( '', ( -1.21287522462606E-16, 0.000000000000000, -1.00000000000000 ) );
#183 = DIRECTION( '', ( 1.00000000000000, 0.000000000000000, -1.21287522462606E-16 ) );
#184 = ORIENTED_EDGE( '', *, *, #228, .T. );
#185 = ORIENTED_EDGE( '', *, *, #229, .F. );
#186 = CARTESIAN_POINT( '', ( -25.0000000000000, 0.000000000000000, 1.46555756308982E-16 ) );
#187 = DIRECTION( '', ( -1.21287522462606E-16, 0.000000000000000, -1.00000000000000 ) );
#188 = DIRECTION( '', ( -1.00000000000000, 0.000000000000000, 1.21287522462606E-16 ) );
#189 = ORIENTED_EDGE( '', *, *, #229, .T. );
#190 = ORIENTED_EDGE( '', *, *, #220, .T. );
#191 = CARTESIAN_POINT( '', ( 0.000000000000000, 0.000000000000000, 33.5833333333333 ) );
#192 = DIRECTION( '', ( -1.21287522462606E-16, 0.000000000000000, -1.00000000000000 ) );
#193 = DIRECTION( '', ( 1.00000000000000, 0.000000000000000, -1.21287522462606E-16 ) );
#194 = ORIENTED_EDGE( '', *, *, #230, .F. );
#195 = ORIENTED_EDGE( '', *, *, #225, .T. );
#196 = CARTESIAN_POINT( '', ( 1.94454364826301, 0.000000000000000, 58.5529310347953 ) );
#197 = DIRECTION( '', ( -0.707106781186548, 0.000000000000000, -0.707106781186547 ) );
#198 = DIRECTION( '', ( -0.707106781186547, 0.000000000000000, 0.707106781186548 ) );
#199 = ORIENTED_EDGE( '', *, *, #230, .T. );
#200 = ORIENTED_EDGE( '', *, *, #231, .F. );
#201 = CARTESIAN_POINT( '', ( 25.4558441227157, 0.000000000000000, 36.4558441227157 ) );
#202 = DIRECTION( '', ( -0.707106781186547, 0.000000000000000, -0.707106781186548 ) );
#203 = DIRECTION( '', ( 0.707106781186548, 0.000000000000000, -0.707106781186547 ) );
#204 = ORIENTED_EDGE( '', *, *, #231, .T. );
#205 = ORIENTED_EDGE( '', *, *, #232, .F. );
#206 = CARTESIAN_POINT( '', ( -8.19065354874417, 0.000000000000000, 34.7470027348482 ) );
#207 = DIRECTION( '', ( 0.707106781186547, -0.000000000000000, 0.707106781186548 ) );
#208 = DIRECTION( '', ( 0.707106781186548, 0.000000000000000, -0.707106781186547 ) );
#209 = ORIENTED_EDGE( '', *, *, #232, .T. );
#210 = ORIENTED_EDGE( '', *, *, #226, .F. );
#211 = ORIENTED_EDGE( '', *, *, #233, .F. );
#212 = CARTESIAN_POINT( '', ( 25.4558441227157, 0.000000000000000, 36.4558441227157 ) );
#213 = DIRECTION( '', ( -0.707106781186548, 0.000000000000000, -0.707106781186548 ) );
#214 = DIRECTION( '', ( 0.707106781186548, 0.000000000000000, -0.707106781186548 ) );
#215 = ORIENTED_EDGE( '', *, *, #227, .F. );
#216 = ORIENTED_EDGE( '', *, *, #233, .T. );
#217 = CARTESIAN_POINT( '', ( -3.46944695195361E-15, 0.000000000000000, 11.0000000000000 ) );
#218 = DIRECTION( '', ( 0.000000000000000, 0.000000000000000, 1.00000000000000 ) );
#219 = DIRECTION( '', ( -1.00000000000000, 0.000000000000000, 0.000000000000000 ) );
#220 = EDGE_CURVE( '', #234, #234, #235, .F. );
#221 = EDGE_CURVE( '', #236, #236, #237, .T. );
#222 = EDGE_CURVE( '', #238, #239, #240, .F. );
#223 = EDGE_CURVE( '', #239, #238, #241, .T. );
#224 = EDGE_CURVE( '', #239, #238, #242, .T. );
#225 = EDGE_CURVE( '', #243, #243, #244, .T. );
#226 = EDGE_CURVE( '', #245, #246, #247, .T. );
#227 = EDGE_CURVE( '', #246, #245, #248, .T. );
#228 = EDGE_CURVE( '', #249, #249, #250, .T. );
#229 = EDGE_CURVE( '', #251, #251, #252, .T. );
#230 = EDGE_CURVE( '', #253, #253, #254, .F. );
#231 = EDGE_CURVE( '', #255, #255, #256, .T. );
#232 = EDGE_CURVE( '', #257, #257, #258, .T. );
#233 = EDGE_CURVE( '', #246, #245, #259, .T. );
#234 = VERTEX_POINT( '', #260 );
#235 = CIRCLE( '', #261, 25.0000000000000 );
#236 = VERTEX_POINT( '', #262 );
#237 = CIRCLE( '', #263, 32.2500000000000 );
#238 = VERTEX_POINT( '', #264 );
#239 = VERTEX_POINT( '', #265 );
#240 = ELLIPSE( '', #266, 34.9071484594000, 32.2500000000000 );
#241 = CIRCLE( '', #267, 32.2500000000000 );
#242 = CIRCLE( '', #268, 32.2500000000000 );
#243 = VERTEX_POINT( '', #269 );
#244 = CIRCLE( '', #270, 32.2500000000000 );
#245 = VERTEX_POINT( '', #271 );
#246 = VERTEX_POINT( '', #272 );
#247 = ELLIPSE( '', #273, 24.4440238566000, 22.5833333333000 );
#248 = CIRCLE( '', #274, 22.5833333333000 );
#249 = VERTEX_POINT( '', #275 );
#250 = CIRCLE( '', #276, 22.5833333333000 );
#251 = VERTEX_POINT( '', #277 );
#252 = CIRCLE( '', #278, 25.0000000000000 );
#253 = VERTEX_POINT( '', #279 );
#254 = CIRCLE( '', #280, 25.0000000000000 );
#255 = VERTEX_POINT( '', #281 );
#256 = CIRCLE( '', #282, 25.0000000000000 );
#257 = VERTEX_POINT( '', #283 );
#258 = CIRCLE( '', #284, 22.5833333333000 );
#259 = CIRCLE( '', #285, 22.5833333333000 );
#260 = CARTESIAN_POINT( '', ( 25.0000000000000, 0.000000000000000, -24.0000000000000 ) );
#261 = AXIS2_PLACEMENT_3D( '', #286, #287, #288 );
#262 = CARTESIAN_POINT( '', ( 32.2500000000000, 0.000000000000000, -24.0000000000000 ) );
#263 = AXIS2_PLACEMENT_3D( '', #289, #290, #291 );
#264 = CARTESIAN_POINT( '', ( -1.04346480118717E-14, -32.2500000000000, 11.0000000000000 ) );
#265 = CARTESIAN_POINT( '', ( -3.57467557599686E-15, 32.2500000000000, 11.0000000000000 ) );
#266 = AXIS2_PLACEMENT_3D( '', #292, #293, #294 );
#267 = AXIS2_PLACEMENT_3D( '', #295, #296, #297 );
#268 = AXIS2_PLACEMENT_3D( '', #298, #299, #300 );
#269 = CARTESIAN_POINT( '', ( 47.5529310347953, 0.000000000000000, 12.9445436482630 ) );
#270 = AXIS2_PLACEMENT_3D( '', #301, #302, #303 );
#271 = CARTESIAN_POINT( '', ( -1.62358264578865E-15, -22.5833333333333, 11.0000000000000 ) );
#272 = CARTESIAN_POINT( '', ( 3.06355129050645E-15, 22.5833333333333, 11.0000000000000 ) );
#273 = AXIS2_PLACEMENT_3D( '', #304, #305, #306 );
#274 = AXIS2_PLACEMENT_3D( '', #307, #308, #309 );
#275 = CARTESIAN_POINT( '', ( 22.5833333333333, 0.000000000000000, -2.73907654894719E-15 ) );
#276 = AXIS2_PLACEMENT_3D( '', #310, #311, #312 );
#277 = CARTESIAN_POINT( '', ( 25.0000000000000, 0.000000000000000, -3.03218806156515E-15 ) );
#278 = AXIS2_PLACEMENT_3D( '', #313, #314, #315 );
#279 = CARTESIAN_POINT( '', ( 7.07106781186547, 0.000000000000000, 53.4264068711929 ) );
#280 = AXIS2_PLACEMENT_3D( '', #316, #317, #318 );
#281 = CARTESIAN_POINT( '', ( 25.4558441227157, 0.000000000000000, 1.10050506338834 ) );
#282 = AXIS2_PLACEMENT_3D( '', #319, #320, #321 );
#283 = CARTESIAN_POINT( '', ( 23.7470027348482, 0.000000000000000, 2.80934645125583 ) );
#284 = AXIS2_PLACEMENT_3D( '', #322, #323, #324 );
#285 = AXIS2_PLACEMENT_3D( '', #325, #326, #327 );
#286 = CARTESIAN_POINT( '', ( -6.98413983513840E-15, 0.000000000000000, -24.0000000000000 ) );
#287 = DIRECTION( '', ( 0.000000000000000, 0.000000000000000, 1.00000000000000 ) );
#288 = DIRECTION( '', ( 1.00000000000000, 0.000000000000000, -0.000000000000000 ) );
#289 = CARTESIAN_POINT( '', ( 0.000000000000000, 0.000000000000000, -24.0000000000000 ) );
#290 = DIRECTION( '', ( 0.000000000000000, 0.000000000000000, 1.00000000000000 ) );
#291 = DIRECTION( '', ( 1.00000000000000, 0.000000000000000, 0.000000000000000 ) );
#292 = CARTESIAN_POINT( '', ( 1.73472347597681E-15, 0.000000000000000, 11.0000000000000 ) );
#293 = DIRECTION( '', ( -0.382683432365090, 0.000000000000000, -0.923879532511287 ) );
#294 = DIRECTION( '', ( 0.923879532511287, 0.000000000000000, -0.382683432365090 ) );
#295 = CARTESIAN_POINT( '', ( 0.000000000000000, 0.000000000000000, 11.0000000000000 ) );
#296 = DIRECTION( '', ( 0.000000000000000, 0.000000000000000, 1.00000000000000 ) );
#297 = DIRECTION( '', ( 1.00000000000000, 0.000000000000000, 0.000000000000000 ) );
#298 = CARTESIAN_POINT( '', ( 0.000000000000000, 0.000000000000000, 11.0000000000000 ) );
#299 = DIRECTION( '', ( 0.707106781186548, -0.000000000000000, 0.707106781186547 ) );
#300 = DIRECTION( '', ( 0.707106781186547, 0.000000000000000, -0.707106781186548 ) );
#301 = CARTESIAN_POINT( '', ( 24.7487373415292, 0.000000000000000, 35.7487373415292 ) );
#302 = DIRECTION( '', ( 0.707106781186548, -0.000000000000000, 0.707106781186547 ) );
#303 = DIRECTION( '', ( 0.707106781186547, 0.000000000000000, -0.707106781186548 ) );
#304 = CARTESIAN_POINT( '', ( -3.10426175045040E-15, 0.000000000000000, 11.0000000000000 ) );
#305 = DIRECTION( '', ( 0.382683432365090, 0.000000000000000, 0.923879532511287 ) );
#306 = DIRECTION( '', ( -0.923879532511287, 0.000000000000000, 0.382683432365090 ) );
#307 = CARTESIAN_POINT( '', ( -2.73907654894719E-15, 0.000000000000000, 11.0000000000000 ) );
#308 = DIRECTION( '', ( 1.21287522462606E-16, -0.000000000000000, 1.00000000000000 ) );
#309 = DIRECTION( '', ( 1.00000000000000, 0.000000000000000, -1.21287522462606E-16 ) );
#310 = CARTESIAN_POINT( '', ( -4.07323929603585E-15, 0.000000000000000, 0.000000000000000 ) );
#311 = DIRECTION( '', ( 1.21287522462606E-16, -0.000000000000000, 1.00000000000000 ) );
#312 = DIRECTION( '', ( 1.00000000000000, 0.000000000000000, -1.21287522462606E-16 ) );
#313 = CARTESIAN_POINT( '', ( -4.07323929603585E-15, 0.000000000000000, 0.000000000000000 ) );
#314 = DIRECTION( '', ( 1.21287522462606E-16, -0.000000000000000, 1.00000000000000 ) );
#315 = DIRECTION( '', ( 1.00000000000000, 0.000000000000000, -1.21287522462606E-16 ) );
#316 = CARTESIAN_POINT( '', ( 24.7487373415292, 0.000000000000000, 35.7487373415292 ) );
#317 = DIRECTION( '', ( -0.707106781186548, 0.000000000000000, -0.707106781186547 ) );
#318 = DIRECTION( '', ( -0.707106781186547, 0.000000000000000, 0.707106781186548 ) );
#319 = CARTESIAN_POINT( '', ( 7.77817459305203, 0.000000000000000, 18.7781745930520 ) );
#320 = DIRECTION( '', ( 0.707106781186547, -0.000000000000000, 0.707106781186548 ) );
#321 = DIRECTION( '', ( 0.707106781186548, 0.000000000000000, -0.707106781186547 ) );
#322 = CARTESIAN_POINT( '', ( 7.77817459305203, 0.000000000000000, 18.7781745930520 ) );
#323 = DIRECTION( '', ( 0.707106781186547, -0.000000000000000, 0.707106781186548 ) );
#324 = DIRECTION( '', ( 0.707106781186548, 0.000000000000000, -0.707106781186547 ) );
#325 = CARTESIAN_POINT( '', ( -1.73472347597681E-15, 0.000000000000000, 11.0000000000000 ) );
#326 = DIRECTION( '', ( 0.707106781186547, -0.000000000000000, 0.707106781186548 ) );
#327 = DIRECTION( '', ( 0.707106781186548, 0.000000000000000, -0.707106781186547 ) );
ENDSEC;
END-ISO-10303-21;
